elbow room only

A community forum for fans of the mercury prize winning manchester band
 
HomeHome  GalleryGallery  FAQFAQ  SearchSearch  RegisterRegister  Log inLog in  

Share | 
 

 the everthere

View previous topic View next topic Go down 
AuthorMessage
schteiny
fallen angel
fallen angel


Male Number of posts : 14
Age : 35
Location : Australia
Registration date : 2009-04-01

PostSubject: the everthere   Fri 03 Apr 2009, 22:20

Hi all,

I was wondering if anybody could help me with the tabs for the fingerpicking in The Everthere? I have a copy of a tab with the chords (which is great) and I know there used to be a tab on the old Powder Blue site before it died that had the picking parts. Unfortunately I never downloaded it and my guitar abilities are too useless to figure it out myself.

Does anyone have a copy of said tab or could help out? You would be in my eternal good books!

Cheers! cheers
Back to top Go down
View user profile
lewis
newborn
newborn


Number of posts : 6
Registration date : 2011-04-09

PostSubject: Re: the everthere   Sat 09 Apr 2011, 14:29

Elbow
The Everthere
Leaders of the Free World


Tab by Gaz

This is how I play this track on acoustic only, fingerpicking in standard tuning


Intro:


e---------------------------------------
B------0-------0-------0-------0--------
G----4---4---4---4---4---4---4---4------
D---------------------------------------
A---------------------------------------
E--3-------3-------3-------3------------


e------------------------------------------
B------0-------0-------0-------0-----------
G----2---2---2---2---2---2---2---2---------
D------------------------------------------
A------------------------------------------
E--1-------1-------1-------1---------------


e---------------------------------------
B------0---------------0-------0--------
G----4---4---4---0---0---0---0---0------
D---------------------------------------
A---------------------------------------
E--3-------3---2---0-------0------------


e----------------------------------------
B------1-------1-------1-------1---------
G----2---2---2---2---2---2---2---2-------
D----------------------------------------
A----------------------------------------
E--1-------1-------1-------1-------------


e-----------------------------------------
B------1-------1-------1-------1----------
G----0---0---0---0---0---0---0---0--------
D-----------------------------------------
A-----------------------------------------
E--3-------3-------3-------3--------------



Verse 1

All my saints have taken

e---------------------------------------
B------0-------0-------0-------0--------
G----7---7---7---7---7---7---7---7------
D---------------------------------------
A---------------------------------------
E--7-------7-------7-------7------------

bribes

e---------------------------------------
B------0-------0-------0-------0--------
G----4---4---4---4---4---4---4---4------
D---------------------------------------
A---------------------------------------
E--3-------3-------3-------3------------

Singing going going

e---------------------------------------
B------7-------7-------7-------7--------
G----6---6---6---6---6---6---6---6------
D---------------------------------------
A---------------------------------------
E--5-------5-------5-------5------------

gone

e---------------------------------------
B------0-------0-------0-------0--------
G----4---4---4---4---4---4---4---4------
D---------------------------------------
A---------------------------------------
E--3-------3-------3-------3------------


All the angels taken

e---------------------------------------
B------0-------0-------0-------0--------
G----7---7---7---7---7---7---7---7------
D---------------------------------------
A---------------------------------------
E--7-------7-------7-------7------------

dives

e---------------------------------------
B------0-------0-------0-------0--------
G----4---4---4---4---4---4---4---4------
D---------------------------------------
A---------------------------------------
E--3-------3-------3-------3------------


Leaving you the only one

e---------------------------------------
B------7-------7-------7-------7--------
G----6---6---6---6---6---6---6---6------
D---------------------------------------
A---------------------------------------
E--5-------5-------5-------5------------



e---------------------------------------
B------7-------7-------7-------7--------
G----6---6---6---6---6---6---6---6------
D---------------------------------------
A---------------------------------------
E--5-------5-------5-------5------------



Chorus 1

If I loose a sequin here and

e---------------------------------------
B------0-------0-------0-------0--------
G----4---4---4---4---4---4---4---4------
D---------------------------------------
A---------------------------------------
E--3-------3-------3-------3------------

there

e------------------------------------------
B------0-------0-------0-------0-----------
G----2---2---2---2---2---2---2---2---------
D------------------------------------------
A------------------------------------------
E--1-------1-------1-------1---------------

More salt than pepper in my

e---------------------------------------
B------0---------------0-------0--------
G----4---4---4---0---0---0---0---0------
D---------------------------------------
A---------------------------------------
E--3-------3---2---0-------0------------

hair

e----------------------------------------
B------1-------1-------1-------1---------
G----2---2---2---2---2---2---2---2-------
D----------------------------------------
A----------------------------------------
E--1-------1-------1-------1-------------

Can I rely on you

e---------------------------------------
B------0-------0-------0-------0--------
G----4---4---4---4---4---4---4---4------
D---------------------------------------
A---------------------------------------
E--3-------3-------3-------3------------


When all the songs are through

e------------------------------------------
B------0-------0-------0-------0-----------
G----2---2---2---2---2---2---2---2---------
D------------------------------------------
A------------------------------------------
E--1-------1-------1-------1---------------


To be for me the everthere

e---------------------------------------
B------0---------------0-------0--------
G----4---4---4---0---0---0---0---0------
D---------------------------------------
A---------------------------------------
E--3-------3---2---0-------0------------

ever

e----------------------------------------
B------1-------1-------1-------1---------
G----2---2---2---2---2---2---2---2-------
D----------------------------------------
A----------------------------------------
E--1-------1-------1-------1-------------

there

e-----------------------------------------
B------1-------1-------1-------1----------
G----0---0---0---0---0---0---0---0--------
D-----------------------------------------
A-----------------------------------------
E--3-------3-------3-------3--------------



Verse 2

Slide into another book
Now and then laugh out loud
Throw that very dirty look
That says
OK
Stop staring at me now



Chorus 3

If I loose the sequence here and there
Less derring do than quiet care
Can I rely on you
For a good talking to
To be for me the everthere everthere

Interlude (as verse)

Chorus 4

If I loose a sequin here and there
And take my time on every stair
Can I rely on you
When this whole thing is through
To be for me the everthere.


Outro

e-----------------------------------------
B------1-------1-------1-------1----0-----
G----0---0---0---0---0---0---0---0--4-----
D-----------------------------------------
A-----------------------------------------
E--3-------3-------3-------3--------3-----



Thats it, enjoy



MOD EDIT: Removed 'Code' tags as they are not relevant and render the tab unreadable. MT

MOD EDIT #2 : Changed font to Courier.
Back to top Go down
View user profile
schteiny
fallen angel
fallen angel


Male Number of posts : 14
Age : 35
Location : Australia
Registration date : 2009-04-01

PostSubject: Re: the everthere   Sun 10 Apr 2011, 02:18

Thank you so much. I feel stupid now that I couldn't figure it out even knowing the base chords. Nevertheless, this is very helpful!
Back to top Go down
View user profile
lewis
newborn
newborn


Number of posts : 6
Registration date : 2011-04-09

PostSubject: Re: the everthere   Sun 10 Apr 2011, 19:54

Only 2 years since your request eh!! Hope it was worth the wait!!

Again cut and paste it into word courier new font for correct spacings etc.
Back to top Go down
View user profile
Sponsored content




PostSubject: Re: the everthere   

Back to top Go down
 
the everthere
View previous topic View next topic Back to top 
Page 1 of 1

Permissions in this forum:You cannot reply to topics in this forum
elbow room only :: welcome to elbow room only :: chords and tabs-
Jump to: