elbow room only

A community forum for fans of the mercury prize winning manchester band
 
HomeHome  GalleryGallery  FAQFAQ  SearchSearch  RegisterRegister  Log inLog in  

Share | 
 

 NEWBORN

View previous topic View next topic Go down 
AuthorMessage
Leo
leader of the free world
leader of the free world
avatar

Male Number of posts : 1083
Location : birmingham
Registration date : 2008-08-11

PostSubject: NEWBORN   Sat 08 Nov 2008, 23:07

i was so desperate to figure this out; so i thought "why not" - there's no proper tab for it anywhere, so I took the responsibility to have a go myself!

ok. heres the tuning...
D A D Ab A E - then a CAPO on the 5th fret

(guitarists: I know that tuning sounds insane, but please persist; I'm 95% sure its right!)

s: slide
p: pull off



NOTE: I am going to tab individual notes, but you still strum all strings!! any gaps mean that they are just open strings!!


the first little bit comes in on "corpse" and goes like this: (remember, capo, fret 5)

"i'll be the corpse..." "useless"
|--7p0---------------------------------------------------------------------|
|-------5-7--------------------7--5--4----2s4--------------------2s4----|
|---------------------------------------------------------------------------|
|---------------------------------------------------------------------------|
|---------------------------------------------------------------------------| repeat, then chorus (remember what i said about stumming all strings, as well
|---------------------------------------------------------------------------| as playing the notes that i've tabbed)


chorus

"like a neeeeeewboooorn"
|---------------------------------------------------------------|
|---------------------------------------------------------------|
|---------------------------------------3--5--8--3--5--------|
|--222222------------------------------------------------- --|
|--222222----------------------------2--4--7--2--4--------|
|--222222--------------------------------------------------- |

|---------------------------------------------------------------|
|---------------------------------------------------------------|
|---------------------------------------3--5--8-5-4----------|
|--222222----------------------------------------------------|
|--222222----------------------------2--4--7-3-2----------|
|--222222----------------------------------------------------|

"whisper what..."
|---------------------------------------------------------------|
|---------------------------------------------------------------|
|---------------------------------------3--5--8--3--5--------|
|--222222------------------------------------------------- --|
|--222222----------------------------2--4--7--2--4--------|
|--222222--------------------------------------------------- |

|----------------------------0-----0-----0--------------u-----------|
|--------------------------0-----0-----0-----------------u----------| the "u" means basically, just do an upstroke/upstrum - but do it slowly; listen to the song
|------------------------0-----0-----0-----0~~~~~~-----u---------|
|--222222222222----------------------------------------u-- -----| end of chorus
|--222222222222-----------------------------------------u-------|
|--222222222222-------------------------------------------u---- |

repeat verse, then chorus again.



solo(ish) Note: that on this part, just play the tabbed notes i.e. don't strum all the strings

|----------------------------------------|
|------0---4---2---0------12---12----|
|---0-------------------0---------------|
|-0--0--0---0---0---0--0----0--------| repeat 4 times
|----------------------------------------|
|----------------------------------------|

chorus, then end.

can't be bothered to tan the rest of the 15 minutes of the live version Smile





give it a go; i'm confident it's right!!
Back to top Go down
View user profile http://www.myspace.com/leowatkinshomerecordings
heshofcheese
friend of ours
friend of ours
avatar

Male Number of posts : 382
Location : Newcastle ish
Registration date : 2008-08-11

PostSubject: Re: NEWBORN   Mon 10 Nov 2008, 12:39

Well done mate, been trying to work this one out for a while. Unfortunately the tunings not quite right. The G string (which you have as Ab), should be tuned to F#. Try the two chords on the words New - born:

new - born
I----------------0--------
I----------------0--------
I---2-----------0--------
I---2-----------0--------
I---2-----------0--------
I---2-----------0--------

I'm sure this is right, I haven't got any further with it though. Very Happy
Back to top Go down
View user profile http://www.panicnow.bravehost.com/
Wretch
fallen angel
fallen angel
avatar

Male Number of posts : 12
Age : 30
Location : Nottingham
Registration date : 2010-07-23

PostSubject: Re: NEWBORN   Sun 25 Jul 2010, 01:12

Sorry to bump this, but does anyone have a tab for the electric guitar for this song? I'm useless at tabbing and I'm too poor to buy the Asleep in the Back tablature book you see . . .
Back to top Go down
View user profile
Sponsored content




PostSubject: Re: NEWBORN   

Back to top Go down
 
NEWBORN
View previous topic View next topic Back to top 
Page 1 of 1

Permissions in this forum:You cannot reply to topics in this forum
elbow room only :: welcome to elbow room only :: chords and tabs-
Jump to: