elbow room only

A community forum for fans of the mercury prize winning manchester band
 
HomeHome  GalleryGallery  FAQFAQ  SearchSearch  RegisterRegister  Log inLog in  

Share | 
 

 Not A Job

View previous topic View next topic Go down 
AuthorMessage
Leo
leader of the free world
leader of the free world
avatar

Male Number of posts : 1083
Location : birmingham
Registration date : 2008-08-11

PostSubject: Not A Job   Thu 02 Oct 2008, 19:36

|------------|
|--------0---|
|----2-------|
|--5--5-----| x4
|------------|
|------------|


|------------|
|--------0---|
|----2-------|
|--2--2-----| x4
|------------|
|------------|



|------------|
|--------0---|
|----2-------|
|------------| x4
|--3--3------|
|------------|



|------------|
|--------0---|
|----2-------|
|------------| x4
|--5--5------|
|------------|
Back to top Go down
View user profile http://www.myspace.com/leowatkinshomerecordings
lewis
newborn
newborn


Number of posts : 6
Registration date : 2011-04-09

PostSubject: Re: Not A Job   Sat 09 Apr 2011, 14:30

Elbow
Not a Job (acoustic version)
Grace Under Pressure single

Tab by Gaz


This is a great track played acoustically,

It's fingerpicked and dead easy


Intro:


e------------------------------------------------------------
B--------0----------0---------0---------0--------------------
G------0---0------0---0-----0---0-----0---0------------------
D--4h5--------4h5-------4h5-------4h5------------------------
A------------------------------------------------------------
E------------------------------------------------------------

Verse 1

Pull the final splinters

e------------------------------------------------------------
B--------0----------0---------0---------0--------------------
G------0---0------0---0-----0---0-----0---0------------------
D--4h5--------4h5-------4h5-------4h5------------------------
A------------------------------------------------------------
E------------------------------------------------------------


Of missing picture winters

e------------------------------------------------------------
B--------0----------0---------0---------0--------------------
G------0---0------0---0-----0---0-----0---0------------------
D------------------------------------------------------------
A--5h7--------5h7-------5h7-------5h7------------------------
E------------------------------------------------------------


You have to give yourself a break

e------------------------------------------------------------
B--------0----------0---------0---------0--------------------
G------0---0------0---0-----0---0-----0---0------------------
D------------------------------------------------------------
A--2h3--------2h3-------2h3-------2h3------------------------
E------------------------------------------------------------



e------------------------------------------------------------
B--------0----------0---------0---------0--------------------
G------0---0------0---0-----0---0-----0---0------------------
D--4h5--------4h5-------4h5-------4h5------------------------
A------------------------------------------------------------
E------------------------------------------------------------

Verse 2

Whatís the fascination


e------------------------------------------------------------
B--------0----------0---------0---------0--------------------
G------0---0------0---0-----0---0-----0---0------------------
D--4h5--------4h5-------4h5-------4h5------------------------
A------------------------------------------------------------
E------------------------------------------------------------


With lovers at the station

e------------------------------------------------------------
B--------0----------0---------0---------0--------------------
G------0---0------0---0-----0---0-----0---0------------------
D------------------------------------------------------------
A--5h7--------5h7-------5h7-------5h7------------------------
E------------------------------------------------------------


You have to tear yourself away

e------------------------------------------------------------
B--------0----------0---------0---------0--------------------
G------0---0------0---0-----0---0-----0---0------------------
D------------------------------------------------------------
A--2h3--------2h3-------2h3-------2h3------------------------
E------------------------------------------------------------



Chorus

e------------------------------------------------------------
B--------0----------0---------0---------0--------------------
G------0---0------0---0-----0---0-----0---0------------------
D--4h5--------4h5-------4h5-------4h5------------------------
A------------------------------------------------------------
E------------------------------------------------------------


The dream again nobody understands


e------------------------------------------------------------
B---------0---0---0----------0---0---0-----------------------
G-------0---0---0---0------0---0---0---0---------------------
D------------------------------------------------------------
A--5h7-----------------2h3-----------------------------------
E------------------------------------------------------------


e------------------------------------------------------------
B--------0----------0---------0---------0--------------------
G------0---0------0---0-----0---0-----0---0------------------
D--4h5--------4h5-------4h5-------4h5------------------------
A------------------------------------------------------------
E------------------------------------------------------------


Walking through the long grass on your hands

e------------------------------------------------------------
B---------0---0---0----------0---0---0-----------------------
G-------0---0---0---0------0---0---0---0---------------------
D------------------------------------------------------------
A--5h7-----------------2h3-----------------------------------
E------------------------------------------------------------


e------------------------------------------------------------
B--------0----------0---------0---------0--------------------
G------0---0------0---0-----0---0-----0---0------------------
D--4h5--------4h5-------4h5-------4h5------------------------
A------------------------------------------------------------
E------------------------------------------------------------

Itís not a job to do today Sleep it off
e------------------------------------------------------------
B------3---3---3-------1---1---1-----------------------------
G----0---0---0---0---0---0---0---0---------------------------
D------------------------------------------------------------
A--5---------------3-----------------------------------------
E------------------------------------------------------------


Then back to verse etc...

Words to make her stay: you said
Leave me and the plants die
A panic smile across your face
Corrugated browline
The hissing bitter punchline
Call when you can tie your lace



Outro

You rule my world
e------------------------------------------------------------
B------3---3---3-------1---1---1---1---1---1---1---1---1---1-
G----0---0---0---0---0---0---0---0---0---0---0---0---0---0---
D------------------------------------------------------------
A--5---------------3-----------------------------------------
E------------------------------------------------------------


You rule my world my brother

e------------------------------------------------------------
B----1---1---1---1---1---1---1---1---1---1---1---1---1-------
G--0---0---0---0---0---0---0---0---0---0---0---0---0---------
D------------------------------------------------------------
A------------------------------------------------------------
E------------------------------------------------------------





MOD EDIT: Removed 'Code' tags as they are not relevant and render the tab unreadable. MT

MOD EDIT #2 : Changed font to Courier.

Back to top Go down
View user profile
 
Not A Job
View previous topic View next topic Back to top 
Page 1 of 1

Permissions in this forum:You cannot reply to topics in this forum
elbow room only :: welcome to elbow room only :: chords and tabs-
Jump to: