elbow room only

A community forum for fans of the mercury prize winning manchester band
 
HomeHome  GalleryGallery  FAQFAQ  SearchSearch  RegisterRegister  Log inLog in  

Share | 
 

 Weather to fly chords......

View previous topic View next topic Go down 
AuthorMessage
Tinwal
fallen angel
fallen angel


Number of posts : 33
Registration date : 2008-04-12

PostSubject: Weather to fly chords......   Sun 13 Jul 2008, 21:04

Been meaning to do more of these but I have been busy searching for a new job.

1 2 3 4

--------8------------8-----------8-----------8-------------------------------------------------------------
--------8------------8-----------8-----------8-----------------------------------------------------------
--------0------------7-----------0-----------0-----------------------------------------------------------
--------X------------X-----------8-----------7---------------------------------------------------------------
--------7------------X-----------X-----------8-----------------------------------------------------------------
--------8------------7-----------X------------X--------------------------------------------------------------

I don't know what the name of these chords are but this is basically it throghout the song. I'm sure if you pick at them you can find the right arrpegios or something similar.
Back to top Go down
View user profile
Jonny
tower crane driver
tower crane driver
avatar

Male Number of posts : 891
Age : 29
Location : Leeds
Registration date : 2008-04-01

PostSubject: Re: Weather to fly chords......   Wed 30 Jul 2008, 18:31

Very nice!

--------8------------8-----------8-----------8-------------------------------------------------------------
--------8------------8-----------8-----------8-----------------------------------------------------------
--------0------------7-----------0-----------0-----------------------------------------------------------
--------X------------X-----------8-----------7---------------------------------------------------------------
--------7------------X-----------X-----------8-----------------------------------------------------------------
--------8------------7-----------X------------X--------------------------------------------------------------
_____|____Gadd11/B_____|_____Fmajsus2
_____C ___________ Bbmin7add9

I THINK Very Happy very much open to correction Smile

In any case, wonderful chords aren't they? Very much the 'blatently found by accident' kind Razz Often that results in the most beauty.
Back to top Go down
View user profile
heshofcheese
friend of ours
friend of ours
avatar

Male Number of posts : 382
Location : Newcastle ish
Registration date : 2008-08-11

PostSubject: Re: Weather to fly chords......   Fri 10 Apr 2009, 19:59

Here's Mark's acoustic guitar part. This is the chord sequence especially noticeable in the "huddle" part of the live shows...

TUNING: (low to high) D G D G B E capo 5th fret

I----3----
I----3----
I----0----
I----0----
I----0----
I----------
C5

I----2----
I----3----
I----0----
I----0----
I----0----
I---------
Cmaj7

I----5----
I----6----
I----7----
I----0----
I----0----
I----------
Gm/C

I----3----
I----5----
I----5----
I----0----
I----0----
I----------
Fadd9/C
Back to top Go down
View user profile http://www.panicnow.bravehost.com/
Tailfly
friend of ours
friend of ours
avatar

Female Number of posts : 219
Age : 23
Location : Yorkshire
Registration date : 2009-05-01

PostSubject: Re: Weather to fly chords......   Sat 02 May 2009, 23:48

I would LOVE to be able to play this! shame I have no musical talent whatsoever...
Back to top Go down
View user profile
Sponsored content




PostSubject: Re: Weather to fly chords......   

Back to top Go down
 
Weather to fly chords......
View previous topic View next topic Back to top 
Page 1 of 1

Permissions in this forum:You cannot reply to topics in this forum
elbow room only :: welcome to elbow room only :: chords and tabs-
Jump to: